ISO-10303-21;
HEADER;
FILE_DESCRIPTION(('CATIA V5 STEP Exchange'),'2;1');

FILE_NAME('C:\\Users\\Astroboy\\Desktop\\RIDIX\\30_SCORRIMENTI_ISO\\20_BOCCOLE\\RDGS300\\STEP\\RDGS300.1256.stp','2017-03-17T22:46:10+00:00',('none'),('none'),'CATIA Version 5 Release 19 GA (IN-10)','CATIA V5 STEP AP203','none');

FILE_SCHEMA(('CONFIG_CONTROL_DESIGN'));

ENDSEC;
/* file written by CATIA V5R19 */
DATA;
#5=PRODUCT('RDGS300.1256','','BOCCOLA AUTOLUBRIFICANTE\X2\000D\X0\\X2\000A\X0\NORMATIVE AUTOMOTIVE',(#2)) ;
#1=APPLICATION_CONTEXT('configuration controlled 3D design of mechanical parts and assemblies') ;
#14=PRODUCT_DEFINITION('',' ',#6,#3) ;
#16=SECURITY_CLASSIFICATION(' ',' ',#15) ;
#15=SECURITY_CLASSIFICATION_LEVEL('unclassified') ;
#47=CARTESIAN_POINT(' ',(0.,0.,0.)) ;
#51=CARTESIAN_POINT('Line Origine',(0.,0.,0.)) ;
#55=CARTESIAN_POINT('Limit',(0.,0.,0.)) ;
#56=CARTESIAN_POINT('Limit',(20.,0.,0.)) ;
#63=CARTESIAN_POINT('Line Origine',(0.,0.,0.)) ;
#67=CARTESIAN_POINT('Limit',(0.,0.,0.)) ;
#68=CARTESIAN_POINT('Limit',(0.,20.,0.)) ;
#72=CARTESIAN_POINT('Line Origine',(0.,0.,0.)) ;
#76=CARTESIAN_POINT('Limit',(0.,0.,0.)) ;
#77=CARTESIAN_POINT('Limit',(0.,0.,20.)) ;
#81=CARTESIAN_POINT('Punto.1',(0.,0.,0.)) ;
#83=CARTESIAN_POINT('Axis2P3D Location',(0.,0.,-28.)) ;
#88=CARTESIAN_POINT('Axis2P3D Location',(0.,0.,-2.2)) ;
#92=CARTESIAN_POINT('Vertex',(-6.4063527018,3.49980643181,-2.2)) ;
#94=CARTESIAN_POINT('Vertex',(6.4063527018,-3.49980643181,-2.2)) ;
#97=CARTESIAN_POINT('Line Origine',(-6.4063527018,3.49980643181,-1.6)) ;
#101=CARTESIAN_POINT('Vertex',(-6.4063527018,3.49980643181,-1.)) ;
#104=CARTESIAN_POINT('Axis2P3D Location',(0.,0.,-1.)) ;
#108=CARTESIAN_POINT('Vertex',(6.4063527018,-3.49980643181,-1.)) ;
#111=CARTESIAN_POINT('Line Origine',(6.4063527018,-3.49980643181,-1.6)) ;
#123=CARTESIAN_POINT('Axis2P3D Location',(0.,0.,-2.2)) ;
#128=CARTESIAN_POINT('Axis2P3D Location',(0.,0.,-1.)) ;
#140=CARTESIAN_POINT('Axis2P3D Location',(0.,0.,-28.)) ;
#145=CARTESIAN_POINT('Axis2P3D Location',(0.,0.,0.)) ;
#149=CARTESIAN_POINT('Vertex',(-5.26549537134,2.87655323163,0.)) ;
#151=CARTESIAN_POINT('Vertex',(5.26549537134,-2.87655323163,0.)) ;
#154=CARTESIAN_POINT('Line Origine',(-5.26549537134,2.87655323163,-28.)) ;
#158=CARTESIAN_POINT('Vertex',(-5.26549537134,2.87655323163,-56.)) ;
#161=CARTESIAN_POINT('Axis2P3D Location',(0.,0.,-56.)) ;
#165=CARTESIAN_POINT('Vertex',(5.26549537134,-2.87655323163,-56.)) ;
#168=CARTESIAN_POINT('Line Origine',(5.26549537134,-2.87655323163,-28.)) ;
#180=CARTESIAN_POINT('Axis2P3D Location',(0.,0.,0.)) ;
#185=CARTESIAN_POINT('Axis2P3D Location',(0.,0.,-56.)) ;
#197=CARTESIAN_POINT('Axis2P3D Location',(-7.3,0.,-2.2)) ;
#202=CARTESIAN_POINT('Axis2P3D Location',(0.,0.,-2.2)) ;
#206=CARTESIAN_POINT('Vertex',(-7.02066049512,3.83540430883,-2.2)) ;
#208=CARTESIAN_POINT('Vertex',(7.02066049512,-3.83540430883,-2.2)) ;
#211=CARTESIAN_POINT('Axis2P3D Location',(0.,0.,-2.2)) ;
#225=CARTESIAN_POINT('Axis2P3D Location',(-8.,0.,-1.)) ;
#230=CARTESIAN_POINT('Axis2P3D Location',(0.,0.,-1.)) ;
#234=CARTESIAN_POINT('Vertex',(7.02066049512,-3.83540430883,-1.)) ;
#236=CARTESIAN_POINT('Vertex',(-7.02066049512,3.83540430883,-1.)) ;
#239=CARTESIAN_POINT('Axis2P3D Location',(0.,0.,-1.)) ;
#253=CARTESIAN_POINT('Axis2P3D Location',(-6.,0.,0.)) ;
#258=CARTESIAN_POINT('Axis2P3D Location',(2.6645352591E-015,-2.1233015346E-015,0.)) ;
#262=CARTESIAN_POINT('Vertex',(-6.14307793323,3.35597877023,0.)) ;
#264=CARTESIAN_POINT('Vertex',(6.14307793508,-3.35597876686,0.)) ;
#267=CARTESIAN_POINT('Axis2P3D Location',(-8.881784197E-016,1.22124532709E-015,0.)) ;
#281=CARTESIAN_POINT('Axis2P3D Location',(-6.2172489379E-015,-5.41788836017E-014,7.)) ;
#286=CARTESIAN_POINT('Line Origine',(6.58186921199,-3.59569154353,-0.5)) ;
#291=CARTESIAN_POINT('Line Origine',(-6.58186921418,3.59569153953,-0.5)) ;
#303=CARTESIAN_POINT('Axis2P3D Location',(-5.3290705182E-015,2.57571741713E-014,7.)) ;
#315=CARTESIAN_POINT('Axis2P3D Location',(0.,0.,-28.)) ;
#320=CARTESIAN_POINT('Line Origine',(-7.02066049512,3.83540430883,-28.)) ;
#324=CARTESIAN_POINT('Vertex',(-7.02066049512,3.83540430883,-55.)) ;
#327=CARTESIAN_POINT('Line Origine',(7.02066049512,-3.83540430883,-28.)) ;
#331=CARTESIAN_POINT('Vertex',(7.02066049512,-3.83540430883,-55.)) ;
#334=CARTESIAN_POINT('Axis2P3D Location',(0.,0.,-55.)) ;
#346=CARTESIAN_POINT('Axis2P3D Location',(0.,0.,-55.)) ;
#358=CARTESIAN_POINT('Axis2P3D Location',(-8.,0.,-56.)) ;
#363=CARTESIAN_POINT('Axis2P3D Location',(-8.881784197E-016,1.27675647832E-015,-56.)) ;
#367=CARTESIAN_POINT('Vertex',(6.14307793508,-3.35597876686,-56.)) ;
#369=CARTESIAN_POINT('Vertex',(-6.14307793323,3.35597877023,-56.)) ;
#372=CARTESIAN_POINT('Axis2P3D Location',(0.,6.80011602583E-016,-56.)) ;
#386=CARTESIAN_POINT('Axis2P3D Location',(9.7699626167E-015,-1.7763568394E-015,-63.)) ;
#391=CARTESIAN_POINT('Line Origine',(6.58186921418,-3.59569153953,-55.5)) ;
#396=CARTESIAN_POINT('Line Origine',(-6.58186921418,3.59569153953,-55.5)) ;
#408=CARTESIAN_POINT('Axis2P3D Location',(-1.64313007645E-014,-2.6645352591E-014,-63.)) ;
#424=CARTESIAN_POINT('Axis2P3D Location',(0.,0.,-1.7)) ;
#429=CARTESIAN_POINT('Line Origine',(-1.,9.14549069214,-1.7)) ;
#433=CARTESIAN_POINT('Vertex',(-1.,9.14549069214,-2.2)) ;
#435=CARTESIAN_POINT('Vertex',(-1.,9.14549069214,-1.2)) ;
#438=CARTESIAN_POINT('Axis2P3D Location',(0.,0.,-2.2)) ;
#442=CARTESIAN_POINT('Vertex',(1.,9.14549069214,-2.2)) ;
#445=CARTESIAN_POINT('Line Origine',(1.,9.14549069214,-1.7)) ;
#449=CARTESIAN_POINT('Vertex',(1.,9.14549069214,-1.2)) ;
#452=CARTESIAN_POINT('Axis2P3D Location',(0.,0.,-1.2)) ;
#464=CARTESIAN_POINT('Axis2P3D Location',(1.,7.23118247592,-2.2)) ;
#469=CARTESIAN_POINT('Line Origine',(1.,8.18833658403,-2.2)) ;
#473=CARTESIAN_POINT('Vertex',(1.,7.23118247592,-2.2)) ;
#476=CARTESIAN_POINT('Line Origine',(1.,7.23118247592,-1.7)) ;
#480=CARTESIAN_POINT('Vertex',(1.,7.23118247592,-1.2)) ;
#483=CARTESIAN_POINT('Line Origine',(1.,8.18833658403,-1.2)) ;
#495=CARTESIAN_POINT('Axis2P3D Location',(0.,0.,-1.7)) ;
#500=CARTESIAN_POINT('Axis2P3D Location',(0.,0.,-2.2)) ;
#504=CARTESIAN_POINT('Vertex',(-1.,7.23118247592,-2.2)) ;
#507=CARTESIAN_POINT('Line Origine',(-1.,7.23118247592,-1.7)) ;
#511=CARTESIAN_POINT('Vertex',(-1.,7.23118247592,-1.2)) ;
#514=CARTESIAN_POINT('Axis2P3D Location',(0.,0.,-1.2)) ;
#526=CARTESIAN_POINT('Axis2P3D Location',(-1.,9.14549069214,-2.2)) ;
#531=CARTESIAN_POINT('Line Origine',(-1.,8.18833658403,-2.2)) ;
#536=CARTESIAN_POINT('Line Origine',(-1.,8.18833658403,-1.2)) ;
#548=CARTESIAN_POINT('Axis2P3D Location',(0.,0.,-2.2)) ;
#560=CARTESIAN_POINT('Axis2P3D Location',(0.,0.,-1.2)) ;
#52=DIRECTION('Vector Direction',(1.,0.,0.)) ;
#64=DIRECTION('Vector Direction',(0.,1.,0.)) ;
#73=DIRECTION('Vector Direction',(0.,0.,1.)) ;
#84=DIRECTION('Axis2P3D Direction',(0.,0.,-1.)) ;
#85=DIRECTION('Axis2P3D XDirection',(-0.87758256189,0.479425538604,-0.)) ;
#89=DIRECTION('Axis2P3D Direction',(0.,0.,-1.)) ;
#98=DIRECTION('Vector Direction',(0.,0.,-1.)) ;
#105=DIRECTION('Axis2P3D Direction',(0.,0.,-1.)) ;
#112=DIRECTION('Vector Direction',(0.,0.,-1.)) ;
#124=DIRECTION('Axis2P3D Direction',(0.,0.,-1.)) ;
#129=DIRECTION('Axis2P3D Direction',(0.,0.,-1.)) ;
#141=DIRECTION('Axis2P3D Direction',(0.,0.,-1.)) ;
#142=DIRECTION('Axis2P3D XDirection',(-0.87758256189,0.479425538604,-0.)) ;
#146=DIRECTION('Axis2P3D Direction',(0.,0.,-1.)) ;
#155=DIRECTION('Vector Direction',(0.,0.,-1.)) ;
#162=DIRECTION('Axis2P3D Direction',(0.,0.,-1.)) ;
#169=DIRECTION('Vector Direction',(0.,0.,-1.)) ;
#181=DIRECTION('Axis2P3D Direction',(0.,0.,-1.)) ;
#186=DIRECTION('Axis2P3D Direction',(0.,0.,-1.)) ;
#198=DIRECTION('Axis2P3D Direction',(0.,0.,-1.)) ;
#199=DIRECTION('Axis2P3D XDirection',(1.,0.,0.)) ;
#203=DIRECTION('Axis2P3D Direction',(0.,0.,-1.)) ;
#212=DIRECTION('Axis2P3D Direction',(0.,0.,-1.)) ;
#226=DIRECTION('Axis2P3D Direction',(0.,0.,-1.)) ;
#227=DIRECTION('Axis2P3D XDirection',(1.,0.,0.)) ;
#231=DIRECTION('Axis2P3D Direction',(0.,0.,-1.)) ;
#240=DIRECTION('Axis2P3D Direction',(0.,0.,-1.)) ;
#254=DIRECTION('Axis2P3D Direction',(0.,0.,-1.)) ;
#255=DIRECTION('Axis2P3D XDirection',(1.,0.,0.)) ;
#259=DIRECTION('Axis2P3D Direction',(0.,0.,-1.)) ;
#268=DIRECTION('Axis2P3D Direction',(0.,0.,-1.)) ;
#282=DIRECTION('Axis2P3D Direction',(8.881784197E-016,7.1054273576E-015,-1.)) ;
#283=DIRECTION('Axis2P3D XDirection',(0.990483103468,-0.137634377047,-1.31708901597E-016)) ;
#287=DIRECTION('Vector Direction',(0.620544580358,-0.339005049798,-0.707106781187)) ;
#292=DIRECTION('Vector Direction',(-0.620544580564,0.339005049421,-0.707106781187)) ;
#304=DIRECTION('Axis2P3D Direction',(6.66133814775E-016,-3.5527136788E-015,-1.)) ;
#305=DIRECTION('Axis2P3D XDirection',(-0.87758256189,0.479425538604,-2.23905132714E-015)) ;
#316=DIRECTION('Axis2P3D Direction',(0.,0.,-1.)) ;
#317=DIRECTION('Axis2P3D XDirection',(-0.87758256189,0.479425538604,-0.)) ;
#321=DIRECTION('Vector Direction',(0.,0.,-1.)) ;
#328=DIRECTION('Vector Direction',(0.,0.,-1.)) ;
#335=DIRECTION('Axis2P3D Direction',(0.,0.,-1.)) ;
#347=DIRECTION('Axis2P3D Direction',(0.,0.,-1.)) ;
#359=DIRECTION('Axis2P3D Direction',(0.,0.,-1.)) ;
#360=DIRECTION('Axis2P3D XDirection',(1.,0.,0.)) ;
#364=DIRECTION('Axis2P3D Direction',(0.,0.,-1.)) ;
#373=DIRECTION('Axis2P3D Direction',(0.,0.,-1.)) ;
#387=DIRECTION('Axis2P3D Direction',(-1.33226762955E-015,4.4408920985E-016,1.)) ;
#388=DIRECTION('Axis2P3D XDirection',(0.990483103472,-0.137634377019,1.31708901597E-015)) ;
#392=DIRECTION('Vector Direction',(0.620544580564,-0.339005049421,0.707106781187)) ;
#397=DIRECTION('Vector Direction',(-0.620544580564,0.339005049421,0.707106781187)) ;
#409=DIRECTION('Axis2P3D Direction',(2.22044604925E-015,3.5527136788E-015,1.)) ;
#410=DIRECTION('Axis2P3D XDirection',(-0.87758256189,0.479425538604,2.63417803193E-016)) ;
#425=DIRECTION('Axis2P3D Direction',(0.,0.,1.)) ;
#426=DIRECTION('Axis2P3D XDirection',(-0.108695652174,0.994075075232,0.)) ;
#430=DIRECTION('Vector Direction',(0.,0.,1.)) ;
#439=DIRECTION('Axis2P3D Direction',(0.,0.,1.)) ;
#446=DIRECTION('Vector Direction',(0.,0.,1.)) ;
#453=DIRECTION('Axis2P3D Direction',(0.,0.,1.)) ;
#465=DIRECTION('Axis2P3D Direction',(1.,0.,0.)) ;
#466=DIRECTION('Axis2P3D XDirection',(0.,1.,0.)) ;
#470=DIRECTION('Vector Direction',(0.,1.,0.)) ;
#477=DIRECTION('Vector Direction',(0.,0.,1.)) ;
#484=DIRECTION('Vector Direction',(0.,1.,0.)) ;
#496=DIRECTION('Axis2P3D Direction',(0.,0.,1.)) ;
#497=DIRECTION('Axis2P3D XDirection',(-0.13698630137,0.990572941906,0.)) ;
#501=DIRECTION('Axis2P3D Direction',(0.,0.,1.)) ;
#508=DIRECTION('Vector Direction',(0.,0.,1.)) ;
#515=DIRECTION('Axis2P3D Direction',(0.,0.,1.)) ;
#527=DIRECTION('Axis2P3D Direction',(-1.,0.,0.)) ;
#528=DIRECTION('Axis2P3D XDirection',(0.,-1.,0.)) ;
#532=DIRECTION('Vector Direction',(0.,-1.,0.)) ;
#537=DIRECTION('Vector Direction',(0.,-1.,0.)) ;
#549=DIRECTION('Axis2P3D Direction',(0.,0.,1.)) ;
#550=DIRECTION('Axis2P3D XDirection',(1.,0.,0.)) ;
#561=DIRECTION('Axis2P3D Direction',(0.,0.,1.)) ;
#562=DIRECTION('Axis2P3D XDirection',(1.,0.,0.)) ;
#48=AXIS2_PLACEMENT_3D(' ',#47,$,$) ;
#86=AXIS2_PLACEMENT_3D('Cylinder Axis2P3D',#83,#84,#85) ;
#90=AXIS2_PLACEMENT_3D('Circle Axis2P3D',#88,#89,$) ;
#106=AXIS2_PLACEMENT_3D('Circle Axis2P3D',#104,#105,$) ;
#125=AXIS2_PLACEMENT_3D('Circle Axis2P3D',#123,#124,$) ;
#130=AXIS2_PLACEMENT_3D('Circle Axis2P3D',#128,#129,$) ;
#143=AXIS2_PLACEMENT_3D('Cylinder Axis2P3D',#140,#141,#142) ;
#147=AXIS2_PLACEMENT_3D('Circle Axis2P3D',#145,#146,$) ;
#163=AXIS2_PLACEMENT_3D('Circle Axis2P3D',#161,#162,$) ;
#182=AXIS2_PLACEMENT_3D('Circle Axis2P3D',#180,#181,$) ;
#187=AXIS2_PLACEMENT_3D('Circle Axis2P3D',#185,#186,$) ;
#200=AXIS2_PLACEMENT_3D('Plane Axis2P3D',#197,#198,#199) ;
#204=AXIS2_PLACEMENT_3D('Circle Axis2P3D',#202,#203,$) ;
#213=AXIS2_PLACEMENT_3D('Circle Axis2P3D',#211,#212,$) ;
#228=AXIS2_PLACEMENT_3D('Plane Axis2P3D',#225,#226,#227) ;
#232=AXIS2_PLACEMENT_3D('Circle Axis2P3D',#230,#231,$) ;
#241=AXIS2_PLACEMENT_3D('Circle Axis2P3D',#239,#240,$) ;
#256=AXIS2_PLACEMENT_3D('Plane Axis2P3D',#253,#254,#255) ;
#260=AXIS2_PLACEMENT_3D('Circle Axis2P3D',#258,#259,$) ;
#269=AXIS2_PLACEMENT_3D('Circle Axis2P3D',#267,#268,$) ;
#284=AXIS2_PLACEMENT_3D('Cone Axis2P3D',#281,#282,#283) ;
#306=AXIS2_PLACEMENT_3D('Cone Axis2P3D',#303,#304,#305) ;
#318=AXIS2_PLACEMENT_3D('Cylinder Axis2P3D',#315,#316,#317) ;
#336=AXIS2_PLACEMENT_3D('Circle Axis2P3D',#334,#335,$) ;
#348=AXIS2_PLACEMENT_3D('Circle Axis2P3D',#346,#347,$) ;
#361=AXIS2_PLACEMENT_3D('Plane Axis2P3D',#358,#359,#360) ;
#365=AXIS2_PLACEMENT_3D('Circle Axis2P3D',#363,#364,$) ;
#374=AXIS2_PLACEMENT_3D('Circle Axis2P3D',#372,#373,$) ;
#389=AXIS2_PLACEMENT_3D('Cone Axis2P3D',#386,#387,#388) ;
#411=AXIS2_PLACEMENT_3D('Cone Axis2P3D',#408,#409,#410) ;
#427=AXIS2_PLACEMENT_3D('Cylinder Axis2P3D',#424,#425,#426) ;
#440=AXIS2_PLACEMENT_3D('Circle Axis2P3D',#438,#439,$) ;
#454=AXIS2_PLACEMENT_3D('Circle Axis2P3D',#452,#453,$) ;
#467=AXIS2_PLACEMENT_3D('Plane Axis2P3D',#464,#465,#466) ;
#498=AXIS2_PLACEMENT_3D('Cylinder Axis2P3D',#495,#496,#497) ;
#502=AXIS2_PLACEMENT_3D('Circle Axis2P3D',#500,#501,$) ;
#516=AXIS2_PLACEMENT_3D('Circle Axis2P3D',#514,#515,$) ;
#529=AXIS2_PLACEMENT_3D('Plane Axis2P3D',#526,#527,#528) ;
#551=AXIS2_PLACEMENT_3D('Plane Axis2P3D',#548,#549,#550) ;
#563=AXIS2_PLACEMENT_3D('Plane Axis2P3D',#560,#561,#562) ;
#40=PRODUCT_DEFINITION_SHAPE(' ',' ',#14) ;
#59=COMPOSITE_CURVE('Linea.1',(#58),.U.) ;
#71=COMPOSITE_CURVE('Linea.2',(#70),.U.) ;
#80=COMPOSITE_CURVE('Linea.3',(#79),.U.) ;
#58=COMPOSITE_CURVE_SEGMENT(.DISCONTINUOUS.,.T.,#57) ;
#70=COMPOSITE_CURVE_SEGMENT(.DISCONTINUOUS.,.T.,#69) ;
#79=COMPOSITE_CURVE_SEGMENT(.DISCONTINUOUS.,.T.,#78) ;
#31=APPROVAL_PERSON_ORGANIZATION(#25,#21,#19) ;
#25=PERSON_AND_ORGANIZATION(#22,#23) ;
#22=PERSON(' ',' ',' ',$,$,$) ;
#23=ORGANIZATION(' ',' ',' ') ;
#21=APPROVAL(#20,' ') ;
#20=APPROVAL_STATUS('not_yet_approved') ;
#19=APPROVAL_ROLE('APPROVER') ;
#13=DATE_AND_TIME(#11,#12) ;
#12=LOCAL_TIME(23,46,10.,#10) ;
#10=COORDINATED_UNIVERSAL_TIME_OFFSET(0,0,.AHEAD.) ;
#117=ORIENTED_EDGE('',*,*,#96,.F.) ;
#118=ORIENTED_EDGE('',*,*,#103,.T.) ;
#119=ORIENTED_EDGE('',*,*,#110,.T.) ;
#120=ORIENTED_EDGE('',*,*,#115,.F.) ;
#134=ORIENTED_EDGE('',*,*,#127,.F.) ;
#135=ORIENTED_EDGE('',*,*,#115,.T.) ;
#136=ORIENTED_EDGE('',*,*,#132,.T.) ;
#137=ORIENTED_EDGE('',*,*,#103,.F.) ;
#174=ORIENTED_EDGE('',*,*,#153,.F.) ;
#175=ORIENTED_EDGE('',*,*,#160,.T.) ;
#176=ORIENTED_EDGE('',*,*,#167,.T.) ;
#177=ORIENTED_EDGE('',*,*,#172,.F.) ;
#191=ORIENTED_EDGE('',*,*,#184,.F.) ;
#192=ORIENTED_EDGE('',*,*,#172,.T.) ;
#193=ORIENTED_EDGE('',*,*,#189,.T.) ;
#194=ORIENTED_EDGE('',*,*,#160,.F.) ;
#217=ORIENTED_EDGE('',*,*,#210,.F.) ;
#218=ORIENTED_EDGE('',*,*,#215,.F.) ;
#221=ORIENTED_EDGE('',*,*,#127,.T.) ;
#222=ORIENTED_EDGE('',*,*,#96,.T.) ;
#245=ORIENTED_EDGE('',*,*,#238,.T.) ;
#246=ORIENTED_EDGE('',*,*,#243,.T.) ;
#249=ORIENTED_EDGE('',*,*,#110,.F.) ;
#250=ORIENTED_EDGE('',*,*,#132,.F.) ;
#273=ORIENTED_EDGE('',*,*,#266,.F.) ;
#274=ORIENTED_EDGE('',*,*,#271,.F.) ;
#277=ORIENTED_EDGE('',*,*,#184,.T.) ;
#278=ORIENTED_EDGE('',*,*,#153,.T.) ;
#297=ORIENTED_EDGE('',*,*,#290,.T.) ;
#298=ORIENTED_EDGE('',*,*,#271,.T.) ;
#299=ORIENTED_EDGE('',*,*,#295,.F.) ;
#300=ORIENTED_EDGE('',*,*,#238,.F.) ;
#309=ORIENTED_EDGE('',*,*,#295,.T.) ;
#310=ORIENTED_EDGE('',*,*,#266,.T.) ;
#311=ORIENTED_EDGE('',*,*,#290,.F.) ;
#312=ORIENTED_EDGE('',*,*,#243,.F.) ;
#340=ORIENTED_EDGE('',*,*,#326,.T.) ;
#341=ORIENTED_EDGE('',*,*,#210,.T.) ;
#342=ORIENTED_EDGE('',*,*,#333,.F.) ;
#343=ORIENTED_EDGE('',*,*,#338,.F.) ;
#352=ORIENTED_EDGE('',*,*,#333,.T.) ;
#353=ORIENTED_EDGE('',*,*,#215,.T.) ;
#354=ORIENTED_EDGE('',*,*,#326,.F.) ;
#355=ORIENTED_EDGE('',*,*,#350,.F.) ;
#378=ORIENTED_EDGE('',*,*,#371,.T.) ;
#379=ORIENTED_EDGE('',*,*,#376,.T.) ;
#382=ORIENTED_EDGE('',*,*,#167,.F.) ;
#383=ORIENTED_EDGE('',*,*,#189,.F.) ;
#402=ORIENTED_EDGE('',*,*,#395,.T.) ;
#403=ORIENTED_EDGE('',*,*,#350,.T.) ;
#404=ORIENTED_EDGE('',*,*,#400,.F.) ;
#405=ORIENTED_EDGE('',*,*,#371,.F.) ;
#414=ORIENTED_EDGE('',*,*,#400,.T.) ;
#415=ORIENTED_EDGE('',*,*,#338,.T.) ;
#416=ORIENTED_EDGE('',*,*,#395,.F.) ;
#417=ORIENTED_EDGE('',*,*,#376,.F.) ;
#458=ORIENTED_EDGE('',*,*,#437,.F.) ;
#459=ORIENTED_EDGE('',*,*,#444,.T.) ;
#460=ORIENTED_EDGE('',*,*,#451,.T.) ;
#461=ORIENTED_EDGE('',*,*,#456,.F.) ;
#489=ORIENTED_EDGE('',*,*,#451,.F.) ;
#490=ORIENTED_EDGE('',*,*,#475,.T.) ;
#491=ORIENTED_EDGE('',*,*,#482,.T.) ;
#492=ORIENTED_EDGE('',*,*,#487,.F.) ;
#520=ORIENTED_EDGE('',*,*,#482,.F.) ;
#521=ORIENTED_EDGE('',*,*,#506,.T.) ;
#522=ORIENTED_EDGE('',*,*,#513,.T.) ;
#523=ORIENTED_EDGE('',*,*,#518,.F.) ;
#542=ORIENTED_EDGE('',*,*,#513,.F.) ;
#543=ORIENTED_EDGE('',*,*,#535,.T.) ;
#544=ORIENTED_EDGE('',*,*,#437,.T.) ;
#545=ORIENTED_EDGE('',*,*,#540,.F.) ;
#554=ORIENTED_EDGE('',*,*,#535,.F.) ;
#555=ORIENTED_EDGE('',*,*,#506,.F.) ;
#556=ORIENTED_EDGE('',*,*,#475,.F.) ;
#557=ORIENTED_EDGE('',*,*,#444,.F.) ;
#566=ORIENTED_EDGE('',*,*,#456,.T.) ;
#567=ORIENTED_EDGE('',*,*,#487,.T.) ;
#568=ORIENTED_EDGE('',*,*,#518,.T.) ;
#569=ORIENTED_EDGE('',*,*,#540,.T.) ;
#223=FACE_BOUND('',#220,.T.) ;
#251=FACE_BOUND('',#248,.T.) ;
#279=FACE_BOUND('',#276,.T.) ;
#384=FACE_BOUND('',#381,.T.) ;
#82=CLOSED_SHELL('Closed Shell',(#122,#139,#179,#196,#224,#252,#280,#302,#314,#345,#357,#385,#407,#419)) ;
#423=CLOSED_SHELL('Closed Shell',(#463,#494,#525,#547,#559,#571)) ;
#53=VECTOR('Line Direction',#52,1.) ;
#65=VECTOR('Line Direction',#64,1.) ;
#74=VECTOR('Line Direction',#73,1.) ;
#99=VECTOR('Line Direction',#98,1.) ;
#113=VECTOR('Line Direction',#112,1.) ;
#156=VECTOR('Line Direction',#155,1.) ;
#170=VECTOR('Line Direction',#169,1.) ;
#288=VECTOR('Line Direction',#287,1.) ;
#293=VECTOR('Line Direction',#292,1.) ;
#322=VECTOR('Line Direction',#321,1.) ;
#329=VECTOR('Line Direction',#328,1.) ;
#393=VECTOR('Line Direction',#392,1.) ;
#398=VECTOR('Line Direction',#397,1.) ;
#431=VECTOR('Line Direction',#430,1.) ;
#447=VECTOR('Line Direction',#446,1.) ;
#471=VECTOR('Line Direction',#470,1.) ;
#478=VECTOR('Line Direction',#477,1.) ;
#485=VECTOR('Line Direction',#484,1.) ;
#509=VECTOR('Line Direction',#508,1.) ;
#533=VECTOR('Line Direction',#532,1.) ;
#538=VECTOR('Line Direction',#537,1.) ;
#421=ADVANCED_BREP_SHAPE_REPRESENTATION('NONE',(#420,#572),#46) ;
#49=SHAPE_REPRESENTATION(' ',(#48),#46) ;
#122=ADVANCED_FACE('PartBody',(#121),#87,.T.) ;
#139=ADVANCED_FACE('PartBody',(#138),#87,.T.) ;
#179=ADVANCED_FACE('PartBody',(#178),#144,.F.) ;
#196=ADVANCED_FACE('PartBody',(#195),#144,.F.) ;
#224=ADVANCED_FACE('PartBody',(#219,#223),#201,.F.) ;
#252=ADVANCED_FACE('PartBody',(#247,#251),#229,.T.) ;
#280=ADVANCED_FACE('PartBody',(#275,#279),#257,.F.) ;
#302=ADVANCED_FACE('PartBody',(#301),#285,.T.) ;
#314=ADVANCED_FACE('PartBody',(#313),#307,.T.) ;
#345=ADVANCED_FACE('PartBody',(#344),#319,.T.) ;
#357=ADVANCED_FACE('PartBody',(#356),#319,.T.) ;
#385=ADVANCED_FACE('PartBody',(#380,#384),#362,.T.) ;
#407=ADVANCED_FACE('PartBody',(#406),#390,.T.) ;
#419=ADVANCED_FACE('PartBody',(#418),#412,.T.) ;
#463=ADVANCED_FACE('Body.12',(#462),#428,.T.) ;
#494=ADVANCED_FACE('Body.12',(#493),#468,.F.) ;
#525=ADVANCED_FACE('Body.12',(#524),#499,.F.) ;
#547=ADVANCED_FACE('Body.12',(#546),#530,.F.) ;
#559=ADVANCED_FACE('Body.12',(#558),#552,.F.) ;
#571=ADVANCED_FACE('Body.12',(#570),#564,.T.) ;
#4=APPLICATION_PROTOCOL_DEFINITION('international standard','config_control_design',1994,#1) ;
#32=APPROVAL_DATE_TIME(#13,#21) ;
#420=MANIFOLD_SOLID_BREP('PartBody',#82) ;
#572=MANIFOLD_SOLID_BREP('Body.12',#423) ;
#11=CALENDAR_DATE(2017,17,3) ;
#30=CC_DESIGN_APPROVAL(#21,(#16,#6,#14)) ;
#18=CC_DESIGN_DATE_AND_TIME_ASSIGNMENT(#13,#17,(#16)) ;
#29=CC_DESIGN_DATE_AND_TIME_ASSIGNMENT(#13,#28,(#14)) ;
#17=DATE_TIME_ROLE('classification_date') ;
#28=DATE_TIME_ROLE('creation_date') ;
#27=CC_DESIGN_PERSON_AND_ORGANIZATION_ASSIGNMENT(#25,#26,(#16)) ;
#33=CC_DESIGN_PERSON_AND_ORGANIZATION_ASSIGNMENT(#25,#34,(#6)) ;
#35=CC_DESIGN_PERSON_AND_ORGANIZATION_ASSIGNMENT(#25,#36,(#6,#14)) ;
#37=CC_DESIGN_PERSON_AND_ORGANIZATION_ASSIGNMENT(#25,#38,(#5)) ;
#26=PERSON_AND_ORGANIZATION_ROLE('classification_officer') ;
#34=PERSON_AND_ORGANIZATION_ROLE('design_supplier') ;
#36=PERSON_AND_ORGANIZATION_ROLE('creator') ;
#38=PERSON_AND_ORGANIZATION_ROLE('design_owner') ;
#39=CC_DESIGN_SECURITY_CLASSIFICATION(#16,(#6)) ;
#91=CIRCLE('generated circle',#90,7.3) ;
#107=CIRCLE('generated circle',#106,7.3) ;
#126=CIRCLE('generated circle',#125,7.3) ;
#131=CIRCLE('generated circle',#130,7.3) ;
#148=CIRCLE('generated circle',#147,6.) ;
#164=CIRCLE('generated circle',#163,6.) ;
#183=CIRCLE('generated circle',#182,6.) ;
#188=CIRCLE('generated circle',#187,6.) ;
#205=CIRCLE('generated circle',#204,8.) ;
#214=CIRCLE('generated circle',#213,8.) ;
#233=CIRCLE('generated circle',#232,8.) ;
#242=CIRCLE('generated circle',#241,8.) ;
#261=CIRCLE('generated circle',#260,7.) ;
#270=CIRCLE('generated circle',#269,7.) ;
#337=CIRCLE('generated circle',#336,8.) ;
#349=CIRCLE('generated circle',#348,8.) ;
#366=CIRCLE('generated circle',#365,7.) ;
#375=CIRCLE('generated circle',#374,7.) ;
#441=CIRCLE('generated circle',#440,9.2) ;
#455=CIRCLE('generated circle',#454,9.2) ;
#503=CIRCLE('generated circle',#502,7.3) ;
#517=CIRCLE('generated circle',#516,7.3) ;
#285=CONICAL_SURFACE('Cone',#284,0.,0.785398163397) ;
#307=CONICAL_SURFACE('Cone',#306,0.,0.785398163397) ;
#390=CONICAL_SURFACE('Cone',#389,0.,0.785398163397) ;
#412=CONICAL_SURFACE('Cone',#411,0.,0.785398163397) ;
#62=SHAPE_REPRESENTATION_RELATIONSHIP(' ',' ',#49,#60) ;
#422=SHAPE_REPRESENTATION_RELATIONSHIP(' ',' ',#49,#421) ;
#87=CYLINDRICAL_SURFACE('generated cylinder',#86,7.3) ;
#144=CYLINDRICAL_SURFACE('generated cylinder',#143,6.) ;
#319=CYLINDRICAL_SURFACE('generated cylinder',#318,8.) ;
#428=CYLINDRICAL_SURFACE('generated cylinder',#427,9.2) ;
#499=CYLINDRICAL_SURFACE('generated cylinder',#498,7.3) ;
#3=DESIGN_CONTEXT(' ',#1,'design') ;
#96=EDGE_CURVE('',#93,#95,#91,.T.) ;
#103=EDGE_CURVE('',#93,#102,#100,.F.) ;
#110=EDGE_CURVE('',#102,#109,#107,.T.) ;
#115=EDGE_CURVE('',#95,#109,#114,.F.) ;
#127=EDGE_CURVE('',#95,#93,#126,.T.) ;
#132=EDGE_CURVE('',#109,#102,#131,.T.) ;
#153=EDGE_CURVE('',#150,#152,#148,.T.) ;
#160=EDGE_CURVE('',#150,#159,#157,.T.) ;
#167=EDGE_CURVE('',#159,#166,#164,.T.) ;
#172=EDGE_CURVE('',#152,#166,#171,.T.) ;
#184=EDGE_CURVE('',#152,#150,#183,.T.) ;
#189=EDGE_CURVE('',#166,#159,#188,.T.) ;
#210=EDGE_CURVE('',#207,#209,#205,.T.) ;
#215=EDGE_CURVE('',#209,#207,#214,.T.) ;
#238=EDGE_CURVE('',#235,#237,#233,.T.) ;
#243=EDGE_CURVE('',#237,#235,#242,.T.) ;
#266=EDGE_CURVE('',#263,#265,#261,.T.) ;
#271=EDGE_CURVE('',#265,#263,#270,.T.) ;
#290=EDGE_CURVE('',#235,#265,#289,.F.) ;
#295=EDGE_CURVE('',#237,#263,#294,.F.) ;
#326=EDGE_CURVE('',#325,#207,#323,.F.) ;
#333=EDGE_CURVE('',#332,#209,#330,.F.) ;
#338=EDGE_CURVE('',#325,#332,#337,.T.) ;
#350=EDGE_CURVE('',#332,#325,#349,.T.) ;
#371=EDGE_CURVE('',#368,#370,#366,.T.) ;
#376=EDGE_CURVE('',#370,#368,#375,.T.) ;
#395=EDGE_CURVE('',#368,#332,#394,.T.) ;
#400=EDGE_CURVE('',#370,#325,#399,.T.) ;
#437=EDGE_CURVE('',#434,#436,#432,.T.) ;
#444=EDGE_CURVE('',#434,#443,#441,.T.) ;
#451=EDGE_CURVE('',#443,#450,#448,.T.) ;
#456=EDGE_CURVE('',#436,#450,#455,.T.) ;
#475=EDGE_CURVE('',#443,#474,#472,.F.) ;
#482=EDGE_CURVE('',#474,#481,#479,.T.) ;
#487=EDGE_CURVE('',#450,#481,#486,.F.) ;
#506=EDGE_CURVE('',#474,#505,#503,.F.) ;
#513=EDGE_CURVE('',#505,#512,#510,.T.) ;
#518=EDGE_CURVE('',#481,#512,#517,.F.) ;
#535=EDGE_CURVE('',#505,#434,#534,.F.) ;
#540=EDGE_CURVE('',#512,#436,#539,.F.) ;
#116=EDGE_LOOP('',(#117,#118,#119,#120)) ;
#133=EDGE_LOOP('',(#134,#135,#136,#137)) ;
#173=EDGE_LOOP('',(#174,#175,#176,#177)) ;
#190=EDGE_LOOP('',(#191,#192,#193,#194)) ;
#216=EDGE_LOOP('',(#217,#218)) ;
#220=EDGE_LOOP('',(#221,#222)) ;
#244=EDGE_LOOP('',(#245,#246)) ;
#248=EDGE_LOOP('',(#249,#250)) ;
#272=EDGE_LOOP('',(#273,#274)) ;
#276=EDGE_LOOP('',(#277,#278)) ;
#296=EDGE_LOOP('',(#297,#298,#299,#300)) ;
#308=EDGE_LOOP('',(#309,#310,#311,#312)) ;
#339=EDGE_LOOP('',(#340,#341,#342,#343)) ;
#351=EDGE_LOOP('',(#352,#353,#354,#355)) ;
#377=EDGE_LOOP('',(#378,#379)) ;
#381=EDGE_LOOP('',(#382,#383)) ;
#401=EDGE_LOOP('',(#402,#403,#404,#405)) ;
#413=EDGE_LOOP('',(#414,#415,#416,#417)) ;
#457=EDGE_LOOP('',(#458,#459,#460,#461)) ;
#488=EDGE_LOOP('',(#489,#490,#491,#492)) ;
#519=EDGE_LOOP('',(#520,#521,#522,#523)) ;
#541=EDGE_LOOP('',(#542,#543,#544,#545)) ;
#553=EDGE_LOOP('',(#554,#555,#556,#557)) ;
#565=EDGE_LOOP('',(#566,#567,#568,#569)) ;
#121=FACE_OUTER_BOUND('',#116,.T.) ;
#138=FACE_OUTER_BOUND('',#133,.T.) ;
#178=FACE_OUTER_BOUND('',#173,.T.) ;
#195=FACE_OUTER_BOUND('',#190,.T.) ;
#219=FACE_OUTER_BOUND('',#216,.T.) ;
#247=FACE_OUTER_BOUND('',#244,.T.) ;
#275=FACE_OUTER_BOUND('',#272,.T.) ;
#301=FACE_OUTER_BOUND('',#296,.T.) ;
#313=FACE_OUTER_BOUND('',#308,.T.) ;
#344=FACE_OUTER_BOUND('',#339,.T.) ;
#356=FACE_OUTER_BOUND('',#351,.T.) ;
#380=FACE_OUTER_BOUND('',#377,.T.) ;
#406=FACE_OUTER_BOUND('',#401,.T.) ;
#418=FACE_OUTER_BOUND('',#413,.T.) ;
#462=FACE_OUTER_BOUND('',#457,.T.) ;
#493=FACE_OUTER_BOUND('',#488,.T.) ;
#524=FACE_OUTER_BOUND('',#519,.T.) ;
#546=FACE_OUTER_BOUND('',#541,.T.) ;
#558=FACE_OUTER_BOUND('',#553,.T.) ;
#570=FACE_OUTER_BOUND('',#565,.T.) ;
#61=GEOMETRIC_SET('NONE',(#59,#71,#80,#81)) ;
#60=GEOMETRICALLY_BOUNDED_SURFACE_SHAPE_REPRESENTATION('NONE',(#61),#46) ;
#45=UNCERTAINTY_MEASURE_WITH_UNIT(LENGTH_MEASURE(0.005),#41,'distance_accuracy_value','CONFUSED CURVE UNCERTAINTY') ;
#54=LINE('Line',#51,#53) ;
#66=LINE('Line',#63,#65) ;
#75=LINE('Line',#72,#74) ;
#100=LINE('Line',#97,#99) ;
#114=LINE('Line',#111,#113) ;
#157=LINE('Line',#154,#156) ;
#171=LINE('Line',#168,#170) ;
#289=LINE('Line',#286,#288) ;
#294=LINE('Line',#291,#293) ;
#323=LINE('Line',#320,#322) ;
#330=LINE('Line',#327,#329) ;
#394=LINE('Line',#391,#393) ;
#399=LINE('Line',#396,#398) ;
#432=LINE('Line',#429,#431) ;
#448=LINE('Line',#445,#447) ;
#472=LINE('Line',#469,#471) ;
#479=LINE('Line',#476,#478) ;
#486=LINE('Line',#483,#485) ;
#510=LINE('Line',#507,#509) ;
#534=LINE('Line',#531,#533) ;
#539=LINE('Line',#536,#538) ;
#2=MECHANICAL_CONTEXT(' ',#1,'mechanical') ;
#24=PERSONAL_ADDRESS(' ',' ',' ',' ',' ',' ',' ',' ',' ',' ',' ',' ',(#22),' ') ;
#201=PLANE('Plane',#200) ;
#229=PLANE('Plane',#228) ;
#257=PLANE('Plane',#256) ;
#362=PLANE('Plane',#361) ;
#468=PLANE('Plane',#467) ;
#530=PLANE('Plane',#529) ;
#552=PLANE('Plane',#551) ;
#564=PLANE('Plane',#563) ;
#43=PLANE_ANGLE_MEASURE_WITH_UNIT(PLANE_ANGLE_MEASURE(0.0174532925199),#42) ;
#7=PRODUCT_CATEGORY('part',$) ;
#9=PRODUCT_CATEGORY_RELATIONSHIP(' ',' ',#7,#8) ;
#6=PRODUCT_DEFINITION_FORMATION_WITH_SPECIFIED_SOURCE('',' ',#5,.NOT_KNOWN.) ;
#8=PRODUCT_RELATED_PRODUCT_CATEGORY('detail',$,(#5)) ;
#50=SHAPE_DEFINITION_REPRESENTATION(#40,#49) ;
#57=TRIMMED_CURVE('',#54,(#55),(#56),.T.,.CARTESIAN.) ;
#69=TRIMMED_CURVE('',#66,(#67),(#68),.T.,.CARTESIAN.) ;
#78=TRIMMED_CURVE('',#75,(#76),(#77),.T.,.CARTESIAN.) ;
#93=VERTEX_POINT('',#92) ;
#95=VERTEX_POINT('',#94) ;
#102=VERTEX_POINT('',#101) ;
#109=VERTEX_POINT('',#108) ;
#150=VERTEX_POINT('',#149) ;
#152=VERTEX_POINT('',#151) ;
#159=VERTEX_POINT('',#158) ;
#166=VERTEX_POINT('',#165) ;
#207=VERTEX_POINT('',#206) ;
#209=VERTEX_POINT('',#208) ;
#235=VERTEX_POINT('',#234) ;
#237=VERTEX_POINT('',#236) ;
#263=VERTEX_POINT('',#262) ;
#265=VERTEX_POINT('',#264) ;
#325=VERTEX_POINT('',#324) ;
#332=VERTEX_POINT('',#331) ;
#368=VERTEX_POINT('',#367) ;
#370=VERTEX_POINT('',#369) ;
#434=VERTEX_POINT('',#433) ;
#436=VERTEX_POINT('',#435) ;
#443=VERTEX_POINT('',#442) ;
#450=VERTEX_POINT('',#449) ;
#474=VERTEX_POINT('',#473) ;
#481=VERTEX_POINT('',#480) ;
#505=VERTEX_POINT('',#504) ;
#512=VERTEX_POINT('',#511) ;
#41=(LENGTH_UNIT()NAMED_UNIT(*)SI_UNIT(.MILLI.,.METRE.)) ;
#42=(NAMED_UNIT(*)PLANE_ANGLE_UNIT()SI_UNIT($,.RADIAN.)) ;
#44=(NAMED_UNIT(*)SI_UNIT($,.STERADIAN.)SOLID_ANGLE_UNIT()) ;
#46=(GEOMETRIC_REPRESENTATION_CONTEXT(3)GLOBAL_UNCERTAINTY_ASSIGNED_CONTEXT((#45))GLOBAL_UNIT_ASSIGNED_CONTEXT((#41,#42,#44))REPRESENTATION_CONTEXT(' ',' ')) ;
ENDSEC;
END-ISO-10303-21;
